Free Halloween Guitar Tabs & Chords To Halloween Songs
Werewolves Of London Guitar Tab & Guitar Chords
Warren Zevon Guitar Tabs











AddThis Social Bookmark Button

Werewolves Of London Guitar Tab & Guitar Chords
Easy To Play Version

				
This tab consist of a combination of all the intruments
that were used to play this song, transcibed so that
it can be played on guitar by just 1 guitarist so that
you can cover the sounds of all the instruments as 1
guitar player to play this song on guitar.


Intro * Single Note Easy Version

e: -7-5-------------|-5-3-------------|-3-3-5-3---------|
B: -----------------|-----------------|-----------------|
G: -----------------|-----------------|-----------------|
D: -----------------|-----------------|-----------------|
A: -----------------|-----------------|-----------------|
E: -----------------|-----------------|-----------------|


Intro 2 * Same as above, only this is the keyboard part
transcribed for guitar.

e: -7--5------------|-5--3------------|-3-3-5-3---------|
B: -7--7------------|-7--5------------|-3-3-3-3---------|
G: -----------------|-----------------|-----------------|
D: -----------------|-----------------|-----------------|
A: -----------------|-----------------|-----------------|
E: -----------------|-----------------|-----------------|

The main guitar chord progession used to play on guitar.

e: -----------------|-----------------|-----------------|
B: -----------------|-----------------|-----------------|
G: -----------------|-----------------|-----------------|
D: -9-7-------------|-7-5-------------|-----------------|
A: -5-5-------------|-5-3-------------|-5-5-7-5---------|
E: -----------------|-----------------|-3-3-3-3---------|




e: -----------------|-----------------|-----------------|
B: -----------------|-----------------|-----------------|
G: -----------------|-----------------|-----------------|
D: -----------------|-----------------|-----------------|
A: -(7--5)----------|-----------------|-----------------|
E: -(3--3)----------|-----------------|-----------------|


The Adams Family Guitar Tab

The Monster Mash Guitar Chords & Tab

The Munsters Theme Song Guitar Tab - Original Version

The Munsters Theme - Heavy Metal Version Guitar Tab

Werewolves Of London Guitar Tab & Guitar Chords



Learn Guitar Halloween Songs * Halloween Songs For Guitar Guitar Chords Halloween Songs * Guitar Tabs Halloween Songs Halloween Guitar Tablature * Tabs To Halloween Songs Free Halloween Guitar Tabs * Halloween Songs Guitar Tablature