Stevie Ray Vaughan Tabs
Free Blues Guitar Lessons Online












Stevie Ray Vaughn Blues Lesson

				
Born: Dallas Texas, 1954

Groupology: Blackbird, The Nightcrawlers, Texas Storm, 
The Cobras, Triple Threat Revenue, Double Trouble

Influences: Lonnie Mack, Hubert Sumlin, Buddy Guy, Albert
King, Freddie King, Jimmy Reed, Jimmie Vaughn, T-Bone Walker,
Kenny Burrell, Grant Green, Django Reindhardt, Jimi Hendrix.

Axology: 59 Stratocaster, with a left handed bridge assembly
and Gibson Jumbo Bass frets. His backup axes include '57 ,'62
and '64 Strats, and a Gibson ES-355 "dot". He used a Vox Cry
Baby wah, and an Ibanez Tube Screamer along with Howard Dumble
amps.

Choice Cuts: "Pride and Joy," "Texas Flood" (Texas Flood);"Tin
Pan Alley" (Couldn't Stand the Weather).

This lesson will focus on the Intro Lick to The Choice Cut
"Pride and Joy"

                       As you're playing these double stops 
                       on the b string and small e string
                       a slight 1/4 bend occurs on the 8th
                       fret b string
                                                
      s                                         s
e :-0-----0-0-0-0------7-7-7-7-7----------------7--------
B :-3--5--5-5-5-5------8-8-8-8-8----------------8--------
G :------------------------------------------------------
D :----------------0-------------------------------------
A :----------------0---------------------------------0---
E :----------------0---------------------------------0---


     s                          b 1/2(grad.release)
e :----0--0-0-0-0-0-0-0---0------------------------------
B :-3--5--5-5-5-5-5-5-5---5------------------------------
G :--------------------------0---2----------------(2)----
D :--------------------------0---------------------------
A :--------------------------0---------------------------
E :------------------------------------------------------


e :-----------0------------------------------------------
B :-----------0------------------------------------------
G :--0--------0------------------------------------------
D :-------2----------------------------------------------
A :------------------------------------------------------
E :------------------------------------------------------

Note Tuning
This song is tuned down a half step
1) =Eb
2) =Bb
3) =Gb
4) =Db
5) =Ab
6) =Eb





Additional Lessons

S.R.V. Blues Guitar Rhythm

S.R.V. Blues Guitar String Bend

Texas Flood * Intro

Texas Flood Licks Lesson

The House is Rockin

Couldn't Stand The Weather


Blues DVD Guitar Lessons




Buy * Purchase * Online

Blues Guitar Tablature & Sheet Music

Blues Guitar DVD Lessons

Blues Guitar Video Lessons