Learn Spanish Guitar Scales Online
Free Spanish Guitar Scales Lessons











AddThis Social Bookmark Button

Guitar Scales & Modes
E Phrygian Mode

				
           E Spanish Phrygian Mode * Minor

This mode being well known for it's Spanish & Classical
sound, may also be used for the heaviest of metal.
 
E Spanish Phrygian is the 3rd mode of C major diatonic 
scale.

                   E Spanish Phrygian

    E F G  A  B C     D E
e :-----------------|-----------------|-----------------|
B :-----------------|-----------------|-----------------|
G :-----------------|-7-9-------------|-----------------|
D :--------7-9-10---|-----------------|-----------------|
A :-7-8-10----------|-----------------|-----------------|
E :-----------------|-----------------|-----------------|


                E Phrygian Guitar Lick
                                           v
e :-----------------|-----------------|-----------------|
B :-----------------|-----------------|-----------------|
G :-----------------|--------7--------|-10-9------------|
D :--------7----9---|-7-10-9---10-----|-----------------|
A :-7-10-8---10-----|-----------------|-----------------|
E :-----------------|-----------------|-----------------|




Spanish Guitar Lesson 2



Learn Free Spanish Mexican Guitar Scales Lesson