Free Rockabilly Guitar Tabs
Rockabilly Lead Guitar










AddThis Social Bookmark Button

Rockabilly Guitar Lesson

Rockabilly Guitar Intro

				

Much of rockablilly guitar is based upon a blend of
country and blues and contains many elements from 
chromatic walking bass lines to various combinations
of major and minor scales and blues scales. This lick
played in the key of A, begins with a descending to
ascending chromatic walking bass line, while converting
to a combination of A major along with A mixoblues,
which is the blues scale with the added major 3rd interval.


                                        b.rel.p  p p
e :-----------------|-----------------|-7-----5---------|
B :-----------------|-----------------|---------8-7-5---|
G :-----------------|-----------------|-----------------|
D :-----------------|-----------------|-----------------|
A :-----------------|-----------------|-----------------|
E :-0-5-5-4-4-3-3---|-2-3-4-5---------|-----------------|


                                        E9+B
     h p   p           p p p    h
e :-----------------|-----------------|-7---------------|
B :-----------------|-----------------|-7---------------|
G :-5-6-5-----------|-----------------|-7---------------|
D :-------7-5-------|-----------------|-6---------------|
A :-----------------|-7-6-5-0--3-4----|-7---------------|
E :-----------------|-----------------|-----------------|





PART 2

 Easy Rockabilly Walking Bass Riff * Key Of A

   A 2x
e: -----------------|-----------------|-----------------|
B: -----------------|-----------------|-----------------|
G: -----------------|-----------------|-----------------|
D: -----------------|-4-4-5-5-4-4-----|-----------------|
A: -----4-4-7-7-----|-------------7-7-|-4-4-------------|
E: -5-5-------------|-----------------|-----------------|


   D 1x
e: -----------------|-----------------|-----------------|
B: -----------------|-----------------|-----------------|
G: -----------------|-4-4-5-5-4-4-----|-----------------|
D: -----4-4-7-7-----|-------------7-7-|-5-5-------------|
A: -5-5-------------|-----------------|-----------------|
E: -----------------|-----------------|-----------------|


   A 1x
e: -----------------|-----------------|-----------------|
B: -----------------|-----------------|-----------------|
G: -----------------|-----------------|-----------------|
D: -----------------|-4-4-5-5-4-4-----|-----------------|
A: -----4-4-7-7-----|-------------7-7-|-4-4-------------|
E: -5-5-------------|-----------------|-----------------|


  E 1x
e: -----------------|-----------------|-----------------|
B: -----------------|-----------------|-----------------|
G: -----------------|-6-6-7-7-6-6-----|-----------------|
D: -----6-6-9-9-----|-------------9-9-|-6-6-------------|
A: -7-7-------------|-----------------|-----------------|
E: -----------------|-----------------|-----------------|



   A 1x
e: -----------------|-----------------|-----------------|
B: -----------------|-----------------|-----------------|
G: -----------------|-----------------|-----------------|
D: -----------------|-4-4-5-5-4-4-----|-----------------|
A: -----4-4-7-7-----|-------------7-7-|-4-4-------------|
E: -5-5-------------|-----------------|-----------------|




			
Lesson 2 * Rockabilly Guitar Boogie

Stray Cats * Stray Cat Strut Guitar Tab




Buy * Purchase * Online

Rockabilly Guitar Tablature Books & Sheet Music