Free Halloween Guitar Tabs
The Munsters Guitar Tab











AddThis Social Bookmark Button

Halloween Guitar Tabs

				
          The Munsters Theme "Heavy Metal Style"

             h                                  h
e :------------------------------------------------------
B :------------------------------------------------------
G :------------------------------------------------------
D :-------------2----------------------------------------
A :-2-------1-2---3-2--0--2-0---0-------5------5-7-------
E :-0--3-0--------------------3---3-2-0----0-0-----0-0---

                 trill
     h       h    h p h             h
e :------------------------------------------------------
B :--------------7-8-7-8---------------------------------
G :-----------------------9------------------------------
D :------------------------------------2-----------------
A :-5-7-----5-7--------------2-----1-2---3-2-0--2-0------
E :-----0-0------------------0-3-0------------------3----

                   h      h       h      h
e :------------------------------------------------------
B :------------------------------------------------------
G :------------------------------------------------------
D :------------------------------------------------------
A :-0-------5-----5-7-----5-7----5-7-----5-7-------------
E :---3-2-0---0-0-----0-0-----0-0----0-0-----------------

                                                     h
e :------------------------------------------------------
B :--------------------------10--8-7-8---7---------------
G :-7-7-7-5-4-5---4--------------------9---7-------------
D :-------------7---5---7-7------------------------------
A :-------------------------------------------2------1-2-
E :-------------------------------------------0--3-0-----


e :------------------------------------------------------
B :------------------------------------------------------
G :---------------------------7-9------------------------
D :-2-------------------------7-9------------------------
A :---3-2-0--2-0---2-2-0---2--5-7------------------------
E :--------------3-0-----3-0-----------------------------
 


The Adams Family Guitar Tab

The Monster Mash Guitar Chords & Tab

The Munsters Theme Song Guitar Tab - Original Version


Werewolves Of London Guitar Tab & Guitar Chords



Learn Guitar Halloween Songs * Halloween Songs For Guitar Guitar Chords Halloween Songs * Guitar Tabs Halloween Songs Halloween Guitar Tablature * Tabs To Halloween Songs Free Halloween Guitar Tabs * Halloween Songs Guitar Tablature