Learn How To Play Stairway To Heaven Guitar Tab
Guitar Tabs * Guitar Tablature * Sheet Music











AddThis Social Bookmark Button

Led Zeppelin
Stairway To Heaven Guitar Tab

				


This lesson will help you get started on Led Zeppelin's
greatest classic hit "Stairyway To Heaven". Example #1
demonstrates the beginning of the song intro. Example
#2 is the beginning guitar lick to the solo. This is a
good demonstration of how this guitar solo lick is analyzed 
as being derived from the scale A minor "natural or pure".

   Example #1

e :--------5-7-----7|-8-----8--2-----2|-0--------0------|
B :-----5------5----|---5--------3----|---1---1----1----|
G :---5---------5---|-----5--------2--|-----2--------2--|
D :-7--------6----6-|-5-----5--4------|-3---------------|
A :-----------------|-----------------|-----------------|
E :-----------------|-----------------|-----------------|

              s
e :-----------------|-----------------|-----------------|
B :-0-1-1-----------|-----------------|-----------------|
G :-0-2-2-----------|-----------------|-----------------|
D :-----------------|-----------------|-----------------|
A :-2-0-0--0-3-8-7--|-----------------|-----------------|
E :-----------------|-----------------|-----------------|

  Example #2
    f                    p      v
e :-----5-----------|-----------------|-----------------|
B :-------8-5-------|-----------------|-----------------|
G :-7---------7-5---|---7-5-----------|-----------------|
D :-----------------|-7-----7-5-------|-----------------|
A :-----------------|-----------8-----|-----------------|
E :-----------------|-----------------|-----------------|


   A Minor Scale (Natural or pure)
    A B C D E F      G A  B C D         E F G  A
e :-----------------|-----------------|--------5--------|
B :-----------------|-----------------|-5-6-8-----------|
G :-----------------|-------5-7-------|-----------------|
D :-----------------|-5-7-9-----------|-----------------|
A :-------5-7-8-----|-----------------|-----------------|
E :-5-7-8-----------|-----------------|-----------------|





			
Jimmy Page Guitar Equipment


Free Jimmy Page Guitar Lessons
Jimmy Page DVD Guitar Lesson
Jimmy Page Guitar Lesson Videos
Led Zeppelin Guitar Tablature Books
Led Zeppelin Sheet Music
Led Zeppelin Guitar Books