Learn Guitar Riffs Free
Free Online Guitar Lessons











AddThis Social Bookmark Button

Guitar Riffs

				

Hells Bells

 #1 
e :------------------------------------------------------
B :------------------------------------------------------
G :---9---7---5---7------9---7---5--7--------------------
D :----7---7---5---7-------7--7---5---5-5-2--------------
A :-0-------0---0---0--0-------0---0--3-2-0--------------
E :------------------------------------------------------

   Thunderstruck

 #2          #3            #4
e :------------------------------------------------------
B :--4-0--7-0--5-0--8-0-----12-0--10-0--9-0--10-0--9-0---
G :------------------------------------------------------
D :------------------------------------------------------
A :------------------------------------------------------
E :------------------------------------------------------
   8 times    8 times


e :------------------------------------------------------
B :-7-0--9-0--5-0--7-0--4-0-5-0-4-0-5-0-4-0-5-0-4-0------
G :------------------------------------------------------
D :------------------------------------------------------
A :------------------------------------------------------
E :------------------------------------------------------

  Barracuda n=natural harmonics   w=whammy bar
  #1
e :------------------------------------------------------
B :------------------------------------------------------
G :------------------------------------------------------
D :------------------------------------------------------
A :(2--2-2-2--2-2-2--2-2-2--2-2-2--2-2-2--2-2-2)-2-2-4-5-
E :(0--0-0-0--0-0-0--0-0-0--0-0-0--0-0-0--0-0-0)-0-0-2-3-
  muted

             #2
e :------5-----------------------------------------------
B :-12---5-----------------------------------------------
G :-12---5-----------------------------------------------
D :------------------------------------------------------
A :-----------(2--2-2-2--2-2-2--2-2-2--2-2-2--2-2-2------
E :-----------(0--0-0-0--0-0-0--0-0-0--0-0-0--0-0-0------
    n   n.w     muted


e :-------------------0----------------------------------
B :-------------------0----------------------------------
G :-------------------0-----12---------------------------
D :-------------------5-----12---------------------------
A :-2-2-2)--2-2-4-5---5----------------------------------
E :-0-0-0)--0-0-2-3---3----------------------------------
                            n.w


Seek and Destroy
#1                                   #2
         s       s                     s
e :------------------------------------------------------
B :------------------------------------------------------
G :-----7-8-7-------------------5-----7-9-7-7------------
D :-------------7-8-7-------5-----7--------9--9-8-7-5----
A :-0-0-------0-------0-8-7---7--------------------------
E :------------------------------------------------------
    m m       m       m m m m m


   #3                               #4
e :------------------------------------------------------
B :------------------------------------------------------
G :------------------------------------------------------
D :----------5-7-5-7-------------------------------------
A :----------5-7-5-7----------7-5------------------------
E :(0-0-0-0)---------(0-0-0-0)---7-6--(0-0-0-0--0-0-0-0--
    muted             muted            muted

                       #5  s
e :------------------------------------------------------
B :-----------------------------------------------8------
G :-----------------------7-9-7-7-----------------7------
D :--------------5-------------9--9-8-7-5---------6------
A :----------------7------------------------------7------
E :-0-0-0-0)--7-6------------------------0-0-0-0--0------


  Enter Sandman
  #1          #2   s           s           s
e :------------------------------------------------------
B :------------------------------------------------------
G :------------------------------------------------------
D :-----5------------------------------------------------
A :---7-----7--2-2-4-7-----2-2-4-7-----2-2-4-7-----------
E :-0----6-5---0-0----7-6--0-0----7-6--0-0-----7-6-------




                    One 
e :------------------------------------------------------
B :------------------------------------------------------
G :--------------------------------------------0---------
D :--------------------4--0--4--0---4--0--4--0----4--0---
A :-5---4----4-5-4----2--2---------2--2----------2--2----
E :-3-0-2-0--2-3-2----------3--3---------3--3------------
    m   m    m m m


                         Fade To Black
e :------------------------------------------------------
B :------------------------------------------------------
G :--------------------------0-------------0-------------
D :---4---0--4--0-----------4--4--4--4----4--4--4--4-----
A :-0---0----------2--2----2-----2--5----0-----0--5------
E :---------3--3--0--2-----------------------------------


e :------------------------------------------------------
B :------------------------------------------------------
G :-----0-----------2------------------------------------
D :---4--4--4-4----2--2---2---2--------------kewl riff eh?
A :-2------2-5----4-----4---0----------------------------
E :------------------------------------------------------


  Hold On Loosley

e :------------------------------------------------------
B :------------------------------------------------------
G :-----9-------------9----4--------------4----7---------
D :-9-7-9-------------9----4--------------4----7---------
A :-9-7-7-(7-7-7-7-7)-7-7--6--(6-6-6-6-6)-6-6--5-(5-5-5--
E :-7-5--------------------------------------------------
           muted        m       muted       m     muted

                                      Paradise City
e :------------------------------------------------------
B :------------------------------------------------------
G :------7----2---------------------9--------5-----------
D :------7----2--------------9--7---9------5-3-5---------
A :-5-5)-5-5--4--(4-4-4-4-4)-9--7---7----5-3---3-5-------
E :--------------------------7--5--------3-------3-------
           m      muted
  
  Sweet Chile O Mine
  #1                   #2
e :-----------15--14----------------15--14---------------
B :---15---------------------15--------------------------
G :-----14-12---14--14---------14-12--14--14-------------
D :-12--------------------14-----------------------------
A :------------------------------------------------------
E :------------------------------------------------------
    2 times                  2 times

  #3                     #1 repeated
e :-----------15--14-------------------------------------
B :---15-------------------------------------------------
G :-12---14-12--14--14-----------------------------------
D :-----------------------12-----------------------------
A :------------------------------------------------------
E :------------------------------------------------------
     2 times               2 times



  The Trooper
   guitar 1                              guitar 2
e :------------------------------------------------------
B :------------------------------------------------------
G :------------------------------------------------------
D :----------------------------------5------5-5-5-4------
A :--7-7-7-5---5-5-5-3--3-3-3-2----5---5-----------5-----
E :---------7---------5---------3------------------------

                                    guitar lick #1
                                          h p h p h      
e :----------------------------------------------------7-
B :------------------------------------8-7-8-7-8-7-8-----
G :------------------------------------------------------
D :--4-4-4-2---2-2-2-0------5----------------------------
A :---------3----------2--5---5--7-----------------------
E :------------------------------------------------------


                                     guitar lick#2      

        h p h p h                       h p h p h
e :------------------------------------------------------
B :-8--7-8-7-8-7-8--8-------8------------------------3---
G :-------------------9-9--7--7--9---4-2-4-2-4-2-4-----4-
D :------------------------------------------------------
A :------------------------------------------------------
E :------------------------------------------------------


     h p h p h
e :------------------------------------------------------
B :------------------------------------------------------
G :-2-4-2-4-2-4--4---------4-----------------------------
D :-----------------5-5---4--4-5-------------------------
A :------------------------------------------------------
E :------------------------------------------------------



Greatest Guitar Riffs page 2

Greatest Guitar Riffs page 3

Greatest Guitar Riffs page 4

Greatest Guitar Riffs page 5