Billboard top rated DVD Guitar Lessons
by Scott Morris











AddThis Social Bookmark Button

Free Pentatonic Guitar Scales Video Lesson
Play Free Lesson

				


A Minor Pentatonic Scale (A,C,C,E,G)

e :-----------------|-5-8-5-----------|-----------------|
B :-----------------|-------8-5-------|-----------------|
G :-------------5-7-|-----------7-5---|-----------------|
D :---------5-7-----|-----------------|-7-5-------------|
A :-----5-7---------|-----------------|-----7-5---------|
E :-5-8-------------|-----------------|---------8-5-----|


A Penatonic Minor Ascending Run With 3rd Finger Slide
         s               s                s
e :-----------------|------------8----|-10-12-15-17-----|
B :-----------------|-------8-10------|-----------------|
G :-----------------|-5-7-9-----------|-----------------|
D :---------5-7-----|-----------------|-----------------|
A :---3-5-7---------|-----------------|-----------------|
E :-5---------------|-----------------|-----------------|


Descending
            s                 s                 s
e :-17-15-----------|-----------------|-----------------|
B :-------17-15-13--|-----------------|-----------------|
G :-----------------|-14-12-----------|-----------------|
D :-----------------|-------14-12-10--|-----------------|
A :-----------------|-----------------|-12-10-----------|
E :-----------------|-----------------|-------12-10-8-5-|


Here are those last 2 guitar licks that I played
demonstrating playing in "Octave" positions

Easy Tab Symbols =
f= full bend or whole step bend
v= vibrato
h= hammer-on
p= pull-off

"Low A" Minor Pentatonic

    f        f.v         h p             s p
e :-------5---------|-----------------|-----------------|
B :----5-----8------|---5-8-5---------|-----------------|
G :-7---------------|-----------------|-8-7-5-----------|
D :-----------------|-----------------|-------7---------|
A :-----------------|-----------------|-----------------|
E :-----------------|-----------------|-----------------|


          v
e :-----------------|-----------------|-----------------|
B :-----------------|-----------------|-----------------|
G :-7-----5---------|-----------------|-----------------|
D :-----------------|-----------------|-----------------|
A :-----------------|-----------------|-----------------|
E :-----------------|-----------------|-----------------|




"High A" Minor Pentatonic (A Octave)

    f           f.v     h  p             s   p
e :---------17------|-----------------|-----------------|
B :-----17-----20---|-17-20-17--------|-----------------|
G :-19--------------|-----------------|-20-19-17--------|
D :-----------------|-----------------|-----------19----|
A :-----------------|-----------------|-----------------|
E :-----------------|-----------------|-----------------|


        v
e :-----------------|-----------------|-----------------|
B :-----------------|-----------------|-----------------|
G :-19--17----------|-----------------|-----------------|
D :-----------------|-----------------|-----------------|
A :-----------------|-----------------|-----------------|
E :-----------------|-----------------|-----------------|


See All Video Sample Lessons