Free Christmas Guitar Tabs * Tablature
Guitar Chords To Christmas Songs











AddThis Social Bookmark Button

Christmas Guitar Tabs & Sheet Music

				
  Have you been searching for christmas guitar tabs, or 
  learn christmas songs, christmas guitar tablature, guitar
  christmas songs, or christmas tabs, yet ~ No luck?

  We have provided you with these free guitar tabs to help
  you learn some of your favorite christmas classics.

                    Jingle Bell Rock
Part 1
     s               s         s         s   
e :------------------------------------------------------
B :------------------------------------------------------
G :-4-5-5-5--4-4-4--1-2-4-2---1-2-4-2---1-2-4-2----------
D :------------------------2---------2-5-------3--2-3-5--
A :----------------------------------------------5-------
E :------------------------------------------------------

                 ending 1          ending 2
e :------------------------------------------------------
B :------------------------------------------------------
G :-2-----------(2-1-2-1-2-------(2-2-4---5)-------------
D :--5--2-3-5-------------2-2)----------5----------------
A :----5-------------------------------------------------
E :------------------------------------------------------

Part 2
e :------------------------------------------------------
B :------3---------3----------------------3------3-------
G :-5-5-5--5--2-5-5-5--5-5-4-2------5-5-5--5--2-5--5-----
D :---------------------------5-2------------------------
A :------------------------------------------------------
E :------------------------------------------------------


e :------------------------------------------------------
B :------------------------------------------------------
G :-----2-2-2-2-4-2--------------------------------------
D :-5-5------------5-------------------------------------
A :------------------------------------------------------
E :------------------------------------------------------

Part 3
     s             s          s
e :------------------------------------------------------
B :---------------------------------------------3-3------
G :-4-5-5-5-4-4-4-1-2--4-2---1-2-4-2----2----2-5---5-5---
D :-----------------------2---------2-5------------------
A :------------------------------------------------------
E :------------------------------------------------------

              s            s           s        
e :------------------------------------------------------
B :--------3------------------------------------3--------
G :-1-1--5---4-5-2-4-2----4-5-2-4-2---4-5-2-4-5----5-----
D :-------------------5-------------5--------------------
A :------------------------------------------------------
E :------------------------------------------------------

              Stray Cats Style Jazz Ending

       b.rel         h
e :-8--------------------------8-------------------------
B :-8--10---8---10--8----------11------------------------
G :----10---8---10--8-9--------9-------------------------
D :----------------------10----8-------------------------
A :----------------------------10------------------------
E :----------------------------8-------------------------
_________________________________________________________

         Let It Snow! Let It Snow! Let It Snow!

e :------------------------------------------------------
B :----------------------------------------3-3-----------
G :-----5-5-3-2-------------------------------5-3-2------
D :-------------5-3--------5-3-5-3-2---------------5-----
A :-3-3------------3---3-3-----------3---5---------------
E :------------------------------------------------------


e :------------------------------------------------------
B :-5-3--------------------------------------------------
G :----5--5-3-2--2------------------2----5---------------
D :----------------5-3---------2-3-5-5-2---5-------------
A :--------------------(3)-------------------------------
E :-----------------------(1)----------------------------


e :------------------------------------------------------
B :------------------------------------------------------
G :------------------------2---5-----5-4-2-4-2-4-5-------
D :-2-5-3-3-2-----2---2-3-5-5-2--5-----------------------
A :----------5-3-5---------------------------------------
E :------------------------------------------------------


e :------------------------------------------------------
B :----------------------------------3-3-----------------
G :---5-5-3-2---------------------------5-3-2------------
D :----------5-3------5-3-5-3-2---------------5----------
A :-3-----------3--3-3---------3--5-5--------------------
E :------------------------------------------------------


e :------------------------------------------------------
B :-5-3--------------------------------------------------
G :----5--5-3-2--2---------------------------------------
D :---------------5-3------------------------------------
A :------------------------------------------------------
E :------------------------------------------------------
_________________________________________________________

                    Oh Christmas Tree

Part 1 (Play 2 times)
       s            s                     s
e :-0-4-5--5-5---7-7-9-9-9--9-7-9-10--4--4-7--5----------
B :------------------------------------------------------
G :------------------------------------------------------
D :------------------------------------------------------
A :------------------------------------------------------
E :------------------------------------------------------

Part 2 (Play 1 time)
              s                          s
e :-12-12-9-12-14-12-12-10-10--10-10-7-10-12-10-10-9-----
B :------------------------------------------------------
G :------------------------------------------------------
D :------------------------------------------------------
A :------------------------------------------------------
E :------------------------------------------------------

  Repeat Part 1 (one time) then end/or start over

_________________________________________________________

                Have A Holly Jolly Christmas

e :------------------------------------------------------
B :-----6-6-5-5----------------------5-5-5---------------
G :---5---------7------5--7-7-5-5----------7-5-5-5---5-5-
D :-7-------------7--7-----------------------------7-----
A :-------------------------------7----------------------
E :------------------------------------------------------


e :------------------------------------------------------
B :------------6-6-5-5--------------------5-5-5----------
G :---5------5---------7-----5-7-7-5-5----------7-5-5-5--
D :-8--7--7-------------7--7-----------------------------
A :------------------------------------7-----------------
E :------------------------------------------------------


e :------------------------------------------------------
B :-------------6---6-5----------------------------------
G :---5-5---------7-----55--7-----7-5------5---7-7-------
D :-7-----8-5-----------------8-8------8-5---7-----------
A :-----------8------------------------------------------
E :------------------------------------------------------


e :------------------------------------------------------
B :----------------6-6-5-5-------------------------------
G :-------4-5----5---------7-----5-7-7-5-5---------------
D :-5-5-7------7-------------7--7------------------------
A :----------------------------------------7-------------
E :------------------------------------------------------


e :----------------------------------1-------------------
B :-5-5-5-------------6---8-----5-6--1-------------------
G :-------7-5-----5-5--------7-------2-------------------
D :-----------8-7--------------------3-------------------
A :------------------------------------------------------
E :------------------------------------------------------
_________________________________________________________

                      Silent Night
        

e :-3-5-3-0--3-5-3-0--10-10-7--8---8---3-----------------
B :-5-6-5-1--5-6-5-1--12-12-8--10--10--5-----------------
G :------------------------------------------------------
D :------------------------------------------------------
A :------------------------------------------------------
E :------------------------------------------------------
   

e :-5-5--8---7--5--3-5-3-0---5-5--8--7--5--3-5-3--0------
B :-6-6--10--8--6--5-6-5-1---6-6--10-8--6--5-6-5--1------
G :------------------------------------------------------
D :------------------------------------------------------
A :------------------------------------------------------
E :------------------------------------------------------
    

e :-10-10--13--10-7--8---12--8--3-0-3-1---0--------------
B :-12-12--15--12-8--10--13--10-5-1-5-3-3-1--------------
G :------------------------------------------------------
D :------------------------------------------------------
A :------------------------------------------------------
E :------------------------------------------------------


Click here to join youcanplayguitar
Click Here!
to join You Can Play Guitar
Join The You Can Play Guitar Group Today! and get access to the following Christmas songs taught in easy to play guitar chord versions.

Learn These Additional
Free Christmas Guitar Song Lessons

A Holly Jolly Christmas by ALAN JACKSON
Away In A Manger
Blue Christmas
Deck The Halls
Grandma Got Run Over By A Reindeer
Here Comes Santa Claus
I Saw Mommy Kissing Santa Claus

Jingle Bells
Let It Snow!
O Holy Night
Redneck 12 Days of Christmas
Rockin' Around The Christmas Tree
Rudolph The Red-Nosed Reindeer
Santa Claus Is Coming To Town
Silver Bells
Silver And Gold
Winter Wonderland
We Wish You A Merry Christmas
White Christmas
Winter Wonderland
Youre A Mean One Mr. Grinch


12 Days Of Christmas

Our Yahoo! Guitar Group is FREE to join!

Click to become a Free Member Today!



These songs are for educational purposes only, and are not purchasable. You Can Play Guitar makes no claim or endorsement of copyright.