Free Bass Guitar Tablature
Blink 182 * Mark Hoppus * Bass Tabs












Blink 182 Bass Tabs * Mark Hoppus

				
      Blink 182 * Mark Hoppus * What's My Age Again

This lesson is focused on the main riff's that were 
created by bassist Mark Hoppus of Blink 182. Each song
is broken down in to an easy to learn bass guitar lesson,
all of which have been summarized to teach you how to play
the basic bass guitar part's (notes played) of each song.
 
These are the notes played during the intro and the chorus.

   Intro                               chorus
G :-----------------|-----------------|-----------------|
D :-----------------|-----------------|-----------------|
A :-2-2-2-2---------|-4-4-4-4---------|---4-4--6-6--2-2-|
E :---------4-4-4-4-|---------6-6-6-6-|-2---------------|

                   All The Small Things

  Riff 1
G :-----------------|-----------------|-----------------|
D :-----------------|-3-3-3-3-3-3-3-3-|-----------------|
A :-3-3-3-3-3-3-3-3-|-----------------|-----------------|
E :-----------------|-----------------|-3-3-3-3-3-3-3-3-|

                      Riff 2
G :-----------------|-----------------|-----------------|
D :-----------------|-----------------|-----------------|
A :-----------------|-3-3-3-3-3-3-3-3-|-----------------|
E :-xxxx--1---1-----|-----------------|-3-3-3-3-3-3-3-3-|

                                       Riff 3
G :-----------------|-----------------|-----------------|
D :-----------------|-----------------|-----------------|
A :-----------------|-----------------|-3-3-3-3-3-3-3-3-|
E :-1-1-1-1-1-1-1-1-|-3-3-3-3-3-3-3-3-|-----------------|


G :-----------------|-----------------|-----------------|
D :-----------------|-----------------|-----------------|
A :-3-3-3-3-3-3-3-3-|-10-10-10-10-10--|-10-10-10-8-8-8-8|
E :-----------------|-----------------|-----------------|

                     Riff 4
G :-----------------|-----------------|-----------------|
D :-----------------|-----------------|-----------------|
A :-8-8-8-8---------|-3-3-3-3-3-3-3-3-|-3-3-3-3-3-3-3-3-|
E :-----------------|-----------------|-----------------|

                                       Riff 5
G :-----------------|-----------------|-----------------|
D :-----------------|-----------------|-----------------|
A :-----------------|-----------------|-3-3-3-3-3-3-3-3-|
E :-3-3-3-3-3-3-3-3-|-1-1-1-1-1-1-1-1-|-----------------|


G :-----------------|-----------------|-----------------|
D :-3-3-3-3-2-2-2-2-|-----------------|-----------------|
A :-----------------|-----------------|-----------------|
E :-----------------|-3-3-3-3-3-3-3-3-|-xxxx-1-1--------|

                       Blow Job

G :-----------------|-----------------|-----------------|
D :-----------------|-----------------|-----------------|
A :-2-2-2-2-2-2-2-2-|-----------------|-----------------|
E :-----------------|-0-0-0-0-0-0-0-0-|-2-2-2-2-2-2-2-2-|

                      Degenerate        Dumpweed (live)
                                        Basic Notes Played
G :-----------------|-----------------|-----------------|
D :-----------------|-----3-----------|-----------------|
A :-----------------|-1-----5----3----|----0---2--------|
E :-0-0-0-0-0-0-0-0-|-----------------|-0---------------|

   Easy Target                         part #2
G :-----------------|-----------------|-----------------|
D :-----------------|-----------------|-----------------|
A :-----------------|-0-0-0-2---------|-5-5-5-5-5-5-5-5-|
E :-2-2-2-0-2-2-4---|---------0-0-4-0-|-----------------|

                     EMO
                     Intro notes played    Riff 1
G :-----------------|---------2-------|-----------------|
D :-----------------|-2---4-----------|-----------------|
A :-0-0-0-0---------|-----------------|--2----4----0----|
E :---------0-0-0-0-|-----------------|-----------------|

   Riff 2            Chorus
G :-----------------|-----------------|---------0-------|
D :----------2------|-2---------2-----|-0------------2--|
A :-1---------------|----3---2-----2--|-----4-----------|
E :-----------------|-----------------|-----------------|

   ENTHUSED            Go
    Intro
G :-----------------|-----------------|-----------------|
D :-----------------|-----------------|-----------------|
A :-5---------------|-3-3-3-3-3-3-3-3-|-3-3-3-3-3-3-3-3-|
E :-----5---7--5--3-|-----------------|-----------------|

                                       Riff #2
G :-----------------|-----------------|-----------------|
D :-----------------|-----------------|-------------2-3-|
A :-----------------|-----------------|-0-0-0-0-0-0-----|
E :-1-1-1-1-1-1-1-1-|-1-1-1-1-1-1-1-1-|-----------------|

                     Riff #3
G :-----------------|-----------------|-----------------|
D :-----------------|-3-3-3-3-3-3-3-3-|-3-3-3-3-3-3-3-3-|
A :-----------------|-----------------|-----------------|
E :-1-1-1-1-1-1-1-1-|-----------------|-----------------|

                                     
G :-----------------|-----------------|-----------------|
D :-----------------|-----------------|-----------------|
A :-----------------|-----------------|-----------------|
E :-1-1-1-1-1-1-1-1-|-1-1-1-1-1-1-1-1-|-----------------|


   Man Overboard
      Intro (3x)..... change           Riff #1 (Notes played)
         p   p   p     p   p   p   p
G :-0-0-7-0-5-0-4-0-|-5-0-4-0-5-0-4-0-|-----------------|
D :-----------------|-----------------|-----------------|
A :-----------------|-----------------|---------3---2---|
E :-----------------|-----------------|-3---0-----------|

  Riff #2             Riff #3
G :-----------------|-----------------|-----------------|
D :--5----0---2-----|-----------------|-----------------|
A :--------------3--|----5------3---2-|-----------------|
E :-----------------|-3------0--------|-----------------|




Free Online Bass Tab * Tabs * Tablature * Free Bass Guitar Lessons Free Slap Bass Lessons * Learn Bass Guitar Solos * Bass Guitar Posters How To Play Bass * Bass Guitar Books * Bass Videos * Bass Guitar DVD Lessons