Accept Guitar Tabs
Balls To The Wall Guitar Tab










AddThis Social Bookmark Button

Accept Guitar Tabs

Accept * Balls To The Wall

				
One of the most popular heavy metal bands during the heavy
metal erra, was Germany's hard rocking heavy metal band
"Accept" which featured the brilliant guitar work of
guitarist "Wolf Hoffman".


   Part 1 * Intro
                                       Last time
e :-----------------|-----------------|-----------------|
B :-----------------|-----------------|-----------------|
G :-----------------|-----------------|-----------------|
D :-5-2-0-2---------|-5-6-7-----------|-5---------------|
A :-5-2-0-2---------|-5-6-7-----------|-5---------------|
E :----------0-0----|-----------------|-----------------|


   Part 2 * Verse

e :-----------------|-----------------|-----------------|
B :-8---------------|-----------------|-----------------|
G :-7--9--7---------|-4---7-9---------|-----------------|
D :-5--9--7---------|-4---7-9---------|-----------------|
A :----7--5---------|-----5-7---------|-----------------|
E :-----------------|-----------------|-----------------|


   Part 3 * Bridge

e :-----------------|-----------------|-----------------|
B :--------8--------|-----------------|-----------------|
G :-----4--7--4--2--|-----------------|-----------------|
D :-----4--5--4--2--|-----------------|-----------------|
A :-xx--2-----2--0--|-----------------|-----------------|
E :-xx--------------|-----------------|-----------------|


   Part 4 * Chorus
                                       Last time
e :-----------------|-----------------|-----------------|
B :-----------------|-5--8------------|-----------------|
G :-----------------|-4--7--7---------|-----------------|
D :-2-------5-4-2---|-2--5--7---------|-5-5-5-5-5-7-7-7-|
A :-2-------5-4-2---|-------5---------|-5-5-5-5-5-7-7-7-|
E :-0--3-0--3-2-0---|-----------------|-3-3-3-3-3-5-5-5-|




e :-----------------|-----------------|-----------------|
B :-----------------|-----------------|-----------------|
G :-----------------|-----------------|-----------------|
D :-7-7-------------|-2---------------|-----------------|
A :-7-7-------------|-2---------------|-----------------|
E :-5-5-------------|-0---------------|-----------------|


  Guitar Solo Licks
   
   Artificial harmonics..............   full bend e&b
e :-----------------|-----------------|-17--------------|
B :-5---------------|-----------------|-17--------------|
G :-----------------|-----------------|-----------------|
D :-----------------|-----------------|-----------------|
A :-----------------|-----------------|-----------------|
E :-----------------|-----------------|-----------------|



                f
e :-17-19-21-22-22--|-----------------|-----------------|
B :-----------------|-12----12-12-----|-----------------|
G :-----------------|-12----12-12-----|-----------------|
D :-----------------|----14-------14--|-----------------|
A :-----------------|-----------------|-2-4-5-4-2-------|
E :-----------------|-----------------|-----------5-3---|



                                        f.rel.p
e :-----------------|-----------------|-----------------|
B :-----------------|-----------------|-7-------5-------|
G :-----------------|-----------------|-----------------|
D :-----------------|-----------2-----|-----------------|
A :-3---------------|-2-4-5-4-2-------|-----------------|
E :----2------------|-----------------|-----------------|




e :-----------------|-----------------|-----------------|
B :-----------------|-----------------|-------------5---|
G :-4-6-7-6-4-------|-4---------------|-4-6-7-6-4-------|
D :-----------7-5---|---4-------------|-----------------|
A :-----------------|-----------------|-----------------|
E :-----------------|-----------------|-----------------|



    f
e :-----------------|-----------------|-----------------|
B :-----------------|-----------------|-----------------|
G :-----------------|-----------------|-----------------|
D :-----------------|-2---------------|-----------------|
A :-----------------|-2---------------|-----------------|
E :-3---------------|-0---------------|-----------------|